  0
SECTION
  2
ENTITIES
  0
TEXT
  8
0
 10
    -0.05
 20
    -0.20
 40
  0.1
  1
 0
 72
   1
 11
    -0.05
 21
    -0.20
  0
TEXT
  8
0
 10
     0.95
 20
    -0.20
 40
  0.1
  1
 500
 72
   1
 11
     0.95
 21
    -0.20
  0
TEXT
  8
0
 10
     1.95
 20
    -0.20
 40
  0.1
  1
 1000
 72
   1
 11
     1.95
 21
    -0.20
  0
TEXT
  8
0
 10
     2.95
 20
    -0.20
 40
  0.1
  1
 1500
 72
   1
 11
     2.95
 21
    -0.20
  0
TEXT
  8
0
 10
     3.95
 20
    -0.20
 40
  0.1
  1
 2000
 72
   1
 11
     3.95
 21
    -0.20
  0
TEXT
  8
0
 10
     4.95
 20
    -0.20
 40
  0.1
  1
 2500
 72
   1
 11
     4.95
 21
    -0.20
  0
TEXT
  8
0
 10
     5.95
 20
    -0.20
 40
  0.1
  1
 3000
 72
   1
 11
     5.95
 21
    -0.20
  0
TEXT
  8
0
 10
     6.95
 20
    -0.20
 40
  0.1
  1
 3500
 72
   1
 11
     6.95
 21
    -0.20
  0
TEXT
  8
0
 10
     7.95
 20
    -0.20
 40
  0.1
  1
 4000
 72
   1
 11
     7.95
 21
    -0.20
  0
TEXT
  8
0
 10
     8.95
 20
    -0.20
 40
  0.1
  1
 4500
 72
   1
 11
     8.95
 21
    -0.20
  0
TEXT
  8
0
 10
     9.95
 20
    -0.20
 40
  0.1
  1
 5000
 72
   1
 11
     9.95
 21
    -0.20
  0
TEXT
  8
0
 10
    10.95
 20
    -0.20
 40
  0.1
  1
 5500
 72
   1
 11
    10.95
 21
    -0.20
  0
TEXT
  8
0
 10
    11.95
 20
    -0.20
 40
  0.1
  1
 6000
 72
   1
 11
    11.95
 21
    -0.20
  0
TEXT
  8
0
 10
    12.95
 20
    -0.20
 40
  0.1
  1
 6500
 72
   1
 11
    12.95
 21
    -0.20
  0
TEXT
  8
0
 10
    -0.75
 20
    -0.05
 40
  0.1
  1
    760
  0
TEXT
  8
0
 10
    12.90
 20
    -0.05
 40
  0.1
  1
  760
  0
TEXT
  8
0
 10
    -0.75
 20
     0.95
 40
  0.1
  1
    770
  0
TEXT
  8
0
 10
    12.90
 20
     0.95
 40
  0.1
  1
  770
  0
TEXT
  8
0
 10
    -0.75
 20
     1.95
 40
  0.1
  1
    780
  0
TEXT
  8
0
 10
    12.90
 20
     1.95
 40
  0.1
  1
  780
  0
TEXT
  8
0
 10
    -0.75
 20
     2.95
 40
  0.1
  1
    790
  0
TEXT
  8
0
 10
    12.90
 20
     2.95
 40
  0.1
  1
  790
  0
TEXT
  8
0
 10
    -0.75
 20
     3.95
 40
  0.1
  1
    800
  0
TEXT
  8
0
 10
    12.90
 20
     3.95
 40
  0.1
  1
  800
  0
TEXT
  8
0
 10
    -0.75
 20
     4.95
 40
  0.1
  1
    810
  0
TEXT
  8
0
 10
    12.90
 20
     4.95
 40
  0.1
  1
  810
  0
TEXT
  8
0
 10
    -0.75
 20
     5.95
 40
  0.1
  1
    820
  0
TEXT
  8
0
 10
    12.90
 20
     5.95
 40
  0.1
  1
  820
  0
TEXT
  8
0
 10
    -0.75
 20
     6.95
 40
  0.1
  1
    830
  0
TEXT
  8
0
 10
    12.90
 20
     6.95
 40
  0.1
  1
  830
  0
TEXT
  8
0
 10
    -0.75
 20
     7.95
 40
  0.1
  1
    840
  0
TEXT
  8
0
 10
    12.90
 20
     7.95
 40
  0.1
  1
  840
  0
TEXT
  8
0
 10
    -0.75
 20
     8.95
 40
  0.1
  1
    850
  0
TEXT
  8
0
 10
    12.90
 20
     8.95
 40
  0.1
  1
  850
  0
INSERT
  8
0
  2
BORDER
 10
     0.00
 20
     0.00
 30
  0
  0
TEXT
  8
0
 10
    14.00
 20
    -0.65
 40
  0.2
 7
ROMANT
  1
1P
 72
   1
 11
    14.00
 21
    -0.65
  0
TEXT
  8
0
 10
     0.00
 20
    -0.60
 40
 0.1
 7
ROMANT
  1
STREAM DISTANCE IN FEET  
 72
   1
 11
     6.50
 21
    -0.60
  0
TEXT
  8
0
 10
    14.10
 20
    -0.20
 40
 0.1
 7
ROMANT
 50
90.0
  1
 WINSTON-SALEM/FORSYTH CO., NC
 72
   1
 11
    14.10
 21
     1.50
  0
TEXT
  8
0
 10
    14.40
 20
    -0.20
 40
 0.1
 50
90.0
  1
 FORSYTH
 72
   1
 11
    14.40
 21
     1.50
  0
TEXT
  8
0
 10
    14.30
 20
     6.30
 40
 0.15
 50
90.0
  1
 GRASSY CREEK
 72
   1
 11
    14.30
 21
     6.30
  0
POLYLINE
  8
STREAM
 66
     1
 70
   128
  0
VERTEX
  8
STREAM
 10
     0.00
 20
     1.60
 30
  0
  0
VERTEX
  8
STREAM
 10
     0.30
 20
     1.63
 30
  0
  0
VERTEX
  8
STREAM
 10
     0.46
 20
     1.64
 30
  0
  0
VERTEX
  8
STREAM
 10
     0.62
 20
     1.65
 30
  0
  0
VERTEX
  8
STREAM
 10
     0.72
 20
     1.70
 30
  0
  0
VERTEX
  8
STREAM
 10
     0.77
 20
     1.70
 30
  0
  0
VERTEX
  8
STREAM
 10
     0.84
 20
     1.70
 30
  0
  0
VERTEX
  8
STREAM
 10
     0.90
 20
     1.70
 30
  0
  0
VERTEX
  8
STREAM
 10
     0.92
 20
     1.70
 30
  0
  0
VERTEX
  8
STREAM
 10
     1.02
 20
     1.75
 30
  0
  0
VERTEX
  8
STREAM
 10
     1.40
 20
     1.75
 30
  0
  0
VERTEX
  8
STREAM
 10
     2.00
 20
     1.90
 30
  0
  0
VERTEX
  8
STREAM
 10
     3.00
 20
     2.05
 30
  0
  0
VERTEX
  8
STREAM
 10
     4.00
 20
     2.15
 30
  0
  0
VERTEX
  8
STREAM
 10
     5.00
 20
     2.35
 30
  0
  0
VERTEX
  8
STREAM
 10
     6.00
 20
     2.55
 30
  0
  0
VERTEX
  8
STREAM
 10
     7.00
 20
     2.75
 30
  0
  0
VERTEX
  8
STREAM
 10
     8.00
 20
     2.90
 30
  0
  0
VERTEX
  8
STREAM
 10
     9.00
 20
     3.15
 30
  0
  0
VERTEX
  8
STREAM
 10
    10.00
 20
     3.30
 30
  0
  0
VERTEX
  8
STREAM
 10
    11.00
 20
     3.45
 30
  0
  0
VERTEX
  8
STREAM
 10
    12.00
 20
     3.65
 30
  0
  0
VERTEX
  8
STREAM
 10
    13.00
 20
     3.85
 30
  0
  0
SEQEND
  0
POLYLINE
  8
WS100
 66
     1
 70
   128
  0
VERTEX
  8
WS100
 10
     0.00
 20
     3.01
 30
  0
  0
VERTEX
  8
WS100
 10
     0.30
 20
     3.01
 30
  0
  0
VERTEX
  8
WS100
 10
     0.46
 20
     3.01
 30
  0
  0
VERTEX
  8
WS100
 10
     0.62
 20
     3.01
 30
  0
  0
VERTEX
  8
WS100
 10
     0.72
 20
     3.01
 30
  0
  0
VERTEX
  8
WS100
 10
     0.77
 20
     3.01
 30
  0
  0
VERTEX
  8
WS100
 10
     0.84
 20
     3.01
 30
  0
  0
VERTEX
  8
WS100
 10
     0.90
 20
     3.01
 30
  0
  0
VERTEX
  8
WS100
 10
     0.92
 20
     3.01
 30
  0
  0
VERTEX
  8
WS100
 10
     1.33
 20
     3.01
 30
  0
  0
VERTEX
  8
WS100
 10
     1.40
 20
     3.02
 30
  0
  0
VERTEX
  8
WS100
 10
     2.00
 20
     3.05
 30
  0
  0
VERTEX
  8
WS100
 10
     3.00
 20
     3.09
 30
  0
  0
VERTEX
  8
WS100
 10
     4.00
 20
     3.13
 30
  0
  0
VERTEX
  8
WS100
 10
     5.00
 20
     3.25
 30
  0
  0
VERTEX
  8
WS100
 10
     6.00
 20
     3.44
 30
  0
  0
VERTEX
  8
WS100
 10
     7.00
 20
     3.60
 30
  0
  0
VERTEX
  8
WS100
 10
     8.00
 20
     3.76
 30
  0
  0
VERTEX
  8
WS100
 10
     9.00
 20
     3.97
 30
  0
  0
VERTEX
  8
WS100
 10
    10.00
 20
     4.12
 30
  0
  0
VERTEX
  8
WS100
 10
    11.00
 20
     4.25
 30
  0
  0
VERTEX
  8
WS100
 10
    12.00
 20
     4.47
 30
  0
  0
VERTEX
  8
WS100
 10
    13.00
 20
     4.69
 30
  0
  0
SEQEND
  0
POLYLINE
  8
WS10
 66
     1
 70
   128
  0
VERTEX
  8
WS10
 10
     0.00
 20
     2.73
 30
  0
  0
VERTEX
  8
WS10
 10
     0.30
 20
     2.73
 30
  0
  0
VERTEX
  8
WS10
 10
     0.46
 20
     2.73
 30
  0
  0
VERTEX
  8
WS10
 10
     0.62
 20
     2.73
 30
  0
  0
VERTEX
  8
WS10
 10
     0.72
 20
     2.73
 30
  0
  0
VERTEX
  8
WS10
 10
     0.77
 20
     2.73
 30
  0
  0
VERTEX
  8
WS10
 10
     0.84
 20
     2.73
 30
  0
  0
VERTEX
  8
WS10
 10
     0.90
 20
     2.73
 30
  0
  0
VERTEX
  8
WS10
 10
     0.92
 20
     2.73
 30
  0
  0
VERTEX
  8
WS10
 10
     1.02
 20
     2.73
 30
  0
  0
VERTEX
  8
WS10
 10
     1.47
 20
     2.73
 30
  0
  0
VERTEX
  8
WS10
 10
     2.00
 20
     2.78
 30
  0
  0
VERTEX
  8
WS10
 10
     3.00
 20
     2.86
 30
  0
  0
VERTEX
  8
WS10
 10
     4.00
 20
     2.96
 30
  0
  0
VERTEX
  8
WS10
 10
     5.00
 20
     3.12
 30
  0
  0
VERTEX
  8
WS10
 10
     6.00
 20
     3.33
 30
  0
  0
VERTEX
  8
WS10
 10
     7.00
 20
     3.49
 30
  0
  0
VERTEX
  8
WS10
 10
     8.00
 20
     3.65
 30
  0
  0
VERTEX
  8
WS10
 10
     9.00
 20
     3.86
 30
  0
  0
VERTEX
  8
WS10
 10
    10.00
 20
     4.01
 30
  0
  0
VERTEX
  8
WS10
 10
    11.00
 20
     4.14
 30
  0
  0
VERTEX
  8
WS10
 10
    12.00
 20
     4.35
 30
  0
  0
VERTEX
  8
WS10
 10
    13.00
 20
     4.58
 30
  0
  0
SEQEND
  0
POLYLINE
  8
WS50
 66
     1
 70
   128
  0
VERTEX
  8
WS50
 10
     0.00
 20
     2.90
 30
  0
  0
VERTEX
  8
WS50
 10
     0.30
 20
     2.90
 30
  0
  0
VERTEX
  8
WS50
 10
     0.46
 20
     2.90
 30
  0
  0
VERTEX
  8
WS50
 10
     0.62
 20
     2.90
 30
  0
  0
VERTEX
  8
WS50
 10
     0.72
 20
     2.90
 30
  0
  0
VERTEX
  8
WS50
 10
     0.77
 20
     2.90
 30
  0
  0
VERTEX
  8
WS50
 10
     0.84
 20
     2.90
 30
  0
  0
VERTEX
  8
WS50
 10
     0.90
 20
     2.90
 30
  0
  0
VERTEX
  8
WS50
 10
     0.92
 20
     2.90
 30
  0
  0
VERTEX
  8
WS50
 10
     1.11
 20
     2.90
 30
  0
  0
VERTEX
  8
WS50
 10
     1.40
 20
     2.95
 30
  0
  0
VERTEX
  8
WS50
 10
     2.00
 20
     2.98
 30
  0
  0
VERTEX
  8
WS50
 10
     3.00
 20
     3.02
 30
  0
  0
VERTEX
  8
WS50
 10
     4.00
 20
     3.07
 30
  0
  0
VERTEX
  8
WS50
 10
     5.00
 20
     3.21
 30
  0
  0
VERTEX
  8
WS50
 10
     6.00
 20
     3.41
 30
  0
  0
VERTEX
  8
WS50
 10
     7.00
 20
     3.57
 30
  0
  0
VERTEX
  8
WS50
 10
     8.00
 20
     3.73
 30
  0
  0
VERTEX
  8
WS50
 10
     9.00
 20
     3.94
 30
  0
  0
VERTEX
  8
WS50
 10
    10.00
 20
     4.09
 30
  0
  0
VERTEX
  8
WS50
 10
    11.00
 20
     4.22
 30
  0
  0
VERTEX
  8
WS50
 10
    12.00
 20
     4.43
 30
  0
  0
VERTEX
  8
WS50
 10
    13.00
 20
     4.66
 30
  0
  0
SEQEND
  0
POLYLINE
  8
WS500
 66
     1
 70
   128
  0
VERTEX
  8
WS500
 10
     0.00
 20
     3.12
 30
  0
  0
VERTEX
  8
WS500
 10
     0.30
 20
     3.12
 30
  0
  0
VERTEX
  8
WS500
 10
     0.46
 20
     3.12
 30
  0
  0
VERTEX
  8
WS500
 10
     0.62
 20
     3.12
 30
  0
  0
VERTEX
  8
WS500
 10
     0.72
 20
     3.12
 30
  0
  0
VERTEX
  8
WS500
 10
     0.77
 20
     3.12
 30
  0
  0
VERTEX
  8
WS500
 10
     0.84
 20
     3.12
 30
  0
  0
VERTEX
  8
WS500
 10
     0.90
 20
     3.12
 30
  0
  0
VERTEX
  8
WS500
 10
     0.92
 20
     3.12
 30
  0
  0
VERTEX
  8
WS500
 10
     1.02
 20
     3.12
 30
  0
  0
VERTEX
  8
WS500
 10
     1.40
 20
     3.12
 30
  0
  0
VERTEX
  8
WS500
 10
     2.44
 20
     3.12
 30
  0
  0
VERTEX
  8
WS500
 10
     3.00
 20
     3.14
 30
  0
  0
VERTEX
  8
WS500
 10
     4.00
 20
     3.19
 30
  0
  0
VERTEX
  8
WS500
 10
     5.00
 20
     3.32
 30
  0
  0
VERTEX
  8
WS500
 10
     6.00
 20
     3.50
 30
  0
  0
VERTEX
  8
WS500
 10
     7.00
 20
     3.66
 30
  0
  0
VERTEX
  8
WS500
 10
     8.00
 20
     3.82
 30
  0
  0
VERTEX
  8
WS500
 10
     9.00
 20
     4.02
 30
  0
  0
VERTEX
  8
WS500
 10
    10.00
 20
     4.17
 30
  0
  0
VERTEX
  8
WS500
 10
    11.00
 20
     4.32
 30
  0
  0
VERTEX
  8
WS500
 10
    12.00
 20
     4.54
 30
  0
  0
VERTEX
  8
WS500
 10
    13.00
 20
     4.75
 30
  0
  0
SEQEND
  0
INSERT
  8
0
  2
XSEC
 10
     0.62
 20
     0.48
 30
  0
  0
TEXT
  8
0
 10
     0.56
 20
     0.42
 40
  0.1
  1
A
  0
INSERT
  8
0
  2
XSEC
 10
     2.00
 20
     0.48
 30
  0
  0
TEXT
  8
0
 10
     1.94
 20
     0.42
 40
  0.1
  1
B
  0
INSERT
  8
0
  2
XSEC
 10
     5.00
 20
     0.48
 30
  0
  0
TEXT
  8
0
 10
     4.94
 20
     0.42
 40
  0.1
  1
C
  0
INSERT
  8
0
  2
XSEC
 10
    10.00
 20
     2.48
 30
  0
  0
TEXT
  8
0
 10
     9.94
 20
     2.42
 40
  0.1
  1
D
  0
INSERT
  8
STRUCTURE
  2
BAR
 10
     0.77
 20
     2.78
 30
  0
  0
POLYLINE
  8
STRUCTURE
 66
     1
 70
   128
  0
VERTEX
  8
STRUCTURE
 10
     0.77
 20
     2.78
 30
  0
  0
VERTEX
  8
STRUCTURE
 10
     0.77
 20
     2.99
 30
  0
  0
SEQEND
  0
INSERT
  8
STRUCTURE
  2
BAR
 10
     0.77
 20
     2.99
 30
  0
  0
INSERT
  8
0
  2
V_BASE
 10
     0.77
 20
     7.00
 30
  0
  0
TEXT
  8
0
 10
     0.72
 20
     7.45
 40
  0.1
 50
90.0
  1
 BECKS CHURCH ROAD
 72
   1
 11
     0.72
 21
     7.45
  0
INSERT
  8
STRUCTURE
  2
BAR
 10
     0.92
 20
     2.71
 30
  0
  0
POLYLINE
  8
STRUCTURE
 66
     1
 70
   128
  0
VERTEX
  8
STRUCTURE
 10
     0.92
 20
     2.71
 30
  0
  0
VERTEX
  8
STRUCTURE
 10
     0.92
 20
     2.96
 30
  0
  0
SEQEND
  0
INSERT
  8
STRUCTURE
  2
BAR
 10
     0.92
 20
     2.96
 30
  0
  0
INSERT
  8
0
  2
V_BASE
 10
     0.92
 20
     7.00
 30
  0
  0
TEXT
  8
0
 10
     0.87
 20
     7.45
 40
  0.1
 50
90.0
  1
 NORFOLK SOUTHERN RR
 72
   1
 11
     0.87
 21
     7.45
  0
INSERT
  8
ROCK
  2
ROCK
 10
     2.00
 20
     1.90
 30
  0
 50
     8.53
  0
INSERT
  8
ROCK
  2
ROCK
 10
     3.00
 20
     2.05
 30
  0
 50
     5.71
  0
INSERT
  8
ROCK
  2
ROCK
 10
     4.00
 20
     2.15
 30
  0
 50
    11.31
  0
INSERT
  8
ROCK
  2
ROCK
 10
     5.00
 20
     2.35
 30
  0
 50
    11.31
  0
INSERT
  8
ROCK
  2
ROCK
 10
     6.00
 20
     2.55
 30
  0
 50
    11.31
  0
INSERT
  8
ROCK
  2
ROCK
 10
     7.00
 20
     2.75
 30
  0
 50
     8.53
  0
TEXT
  8
0
 10
    16.95
 20
    -0.20
 40
  0.1
  1
 6500
 72
   1
 11
    16.95
 21
    -0.20
  0
TEXT
  8
0
 10
    17.95
 20
    -0.20
 40
  0.1
  1
 7000
 72
   1
 11
    17.95
 21
    -0.20
  0
TEXT
  8
0
 10
    18.95
 20
    -0.20
 40
  0.1
  1
 7500
 72
   1
 11
    18.95
 21
    -0.20
  0
TEXT
  8
0
 10
    19.95
 20
    -0.20
 40
  0.1
  1
 8000
 72
   1
 11
    19.95
 21
    -0.20
  0
TEXT
  8
0
 10
    20.95
 20
    -0.20
 40
  0.1
  1
 8500
 72
   1
 11
    20.95
 21
    -0.20
  0
TEXT
  8
0
 10
    21.95
 20
    -0.20
 40
  0.1
  1
 9000
 72
   1
 11
    21.95
 21
    -0.20
  0
TEXT
  8
0
 10
    22.95
 20
    -0.20
 40
  0.1
  1
 9500
 72
   1
 11
    22.95
 21
    -0.20
  0
TEXT
  8
0
 10
    23.95
 20
    -0.20
 40
  0.1
  1
 10000
 72
   1
 11
    23.95
 21
    -0.20
  0
TEXT
  8
0
 10
    24.95
 20
    -0.20
 40
  0.1
  1
 10500
 72
   1
 11
    24.95
 21
    -0.20
  0
TEXT
  8
0
 10
    25.95
 20
    -0.20
 40
  0.1
  1
 11000
 72
   1
 11
    25.95
 21
    -0.20
  0
TEXT
  8
0
 10
    26.95
 20
    -0.20
 40
  0.1
  1
 11500
 72
   1
 11
    26.95
 21
    -0.20
  0
TEXT
  8
0
 10
    27.95
 20
    -0.20
 40
  0.1
  1
 12000
 72
   1
 11
    27.95
 21
    -0.20
  0
TEXT
  8
0
 10
    28.95
 20
    -0.20
 40
  0.1
  1
 12500
 72
   1
 11
    28.95
 21
    -0.20
  0
TEXT
  8
0
 10
    29.95
 20
    -0.20
 40
  0.1
  1
 13000
 72
   1
 11
    29.95
 21
    -0.20
  0
TEXT
  8
0
 10
    16.25
 20
    -0.05
 40
  0.1
  1
    780
  0
TEXT
  8
0
 10
    29.90
 20
    -0.05
 40
  0.1
  1
  780
  0
TEXT
  8
0
 10
    16.25
 20
     0.95
 40
  0.1
  1
    790
  0
TEXT
  8
0
 10
    29.90
 20
     0.95
 40
  0.1
  1
  790
  0
TEXT
  8
0
 10
    16.25
 20
     1.95
 40
  0.1
  1
    800
  0
TEXT
  8
0
 10
    29.90
 20
     1.95
 40
  0.1
  1
  800
  0
TEXT
  8
0
 10
    16.25
 20
     2.95
 40
  0.1
  1
    810
  0
TEXT
  8
0
 10
    29.90
 20
     2.95
 40
  0.1
  1
  810
  0
TEXT
  8
0
 10
    16.25
 20
     3.95
 40
  0.1
  1
    820
  0
TEXT
  8
0
 10
    29.90
 20
     3.95
 40
  0.1
  1
  820
  0
TEXT
  8
0
 10
    16.25
 20
     4.95
 40
  0.1
  1
    830
  0
TEXT
  8
0
 10
    29.90
 20
     4.95
 40
  0.1
  1
  830
  0
TEXT
  8
0
 10
    16.25
 20
     5.95
 40
  0.1
  1
    840
  0
TEXT
  8
0
 10
    29.90
 20
     5.95
 40
  0.1
  1
  840
  0
TEXT
  8
0
 10
    16.25
 20
     6.95
 40
  0.1
  1
    850
  0
TEXT
  8
0
 10
    29.90
 20
     6.95
 40
  0.1
  1
  850
  0
TEXT
  8
0
 10
    16.25
 20
     7.95
 40
  0.1
  1
    860
  0
TEXT
  8
0
 10
    29.90
 20
     7.95
 40
  0.1
  1
  860
  0
TEXT
  8
0
 10
    16.25
 20
     8.95
 40
  0.1
  1
    870
  0
TEXT
  8
0
 10
    29.90
 20
     8.95
 40
  0.1
  1
  870
  0
INSERT
  8
0
  2
BORDER
 10
    17.00
 20
     0.00
 30
  0
  0
TEXT
  8
0
 10
    31.00
 20
    -0.65
 40
  0.2
 7
ROMANT
  1
2P
 72
   1
 11
    31.00
 21
    -0.65
  0
TEXT
  8
0
 10
    17.00
 20
    -0.60
 40
 0.1
 7
ROMANT
  1
STREAM DISTANCE IN FEET  
 72
   1
 11
    23.50
 21
    -0.60
  0
TEXT
  8
0
 10
    31.10
 20
    -0.20
 40
 0.1
 7
ROMANT
 50
90.0
  1
 WINSTON-SALEM/FORSYTH CO., NC
 72
   1
 11
    31.10
 21
     1.50
  0
TEXT
  8
0
 10
    31.40
 20
    -0.20
 40
 0.1
 50
90.0
  1
 FORSYTH
 72
   1
 11
    31.40
 21
     1.50
  0
TEXT
  8
0
 10
    31.30
 20
     6.30
 40
 0.15
 50
90.0
  1
 GRASSY CREEK
 72
   1
 11
    31.30
 21
     6.30
  0
POLYLINE
  8
STREAM
 66
     1
 70
   128
  0
VERTEX
  8
STREAM
 10
    17.00
 20
     1.85
 30
  0
  0
VERTEX
  8
STREAM
 10
    18.00
 20
     2.10
 30
  0
  0
VERTEX
  8
STREAM
 10
    18.40
 20
     2.18
 30
  0
  0
VERTEX
  8
STREAM
 10
    19.00
 20
     2.30
 30
  0
  0
VERTEX
  8
STREAM
 10
    20.00
 20
     2.50
 30
  0
  0
VERTEX
  8
STREAM
 10
    20.60
 20
     2.55
 30
  0
  0
VERTEX
  8
STREAM
 10
    20.88
 20
     2.65
 30
  0
  0
VERTEX
  8
STREAM
 10
    20.94
 20
     2.49
 30
  0
  0
VERTEX
  8
STREAM
 10
    21.06
 20
     2.54
 30
  0
  0
VERTEX
  8
STREAM
 10
    21.16
 20
     2.70
 30
  0
  0
VERTEX
  8
STREAM
 10
    21.40
 20
     2.70
 30
  0
  0
VERTEX
  8
STREAM
 10
    22.00
 20
     2.80
 30
  0
  0
VERTEX
  8
STREAM
 10
    22.80
 20
     3.00
 30
  0
  0
VERTEX
  8
STREAM
 10
    23.20
 20
     3.20
 30
  0
  0
VERTEX
  8
STREAM
 10
    23.32
 20
     3.25
 30
  0
  0
VERTEX
  8
STREAM
 10
    23.42
 20
     3.31
 30
  0
  0
VERTEX
  8
STREAM
 10
    23.42
 20
     3.31
 30
  0
  0
VERTEX
  8
STREAM
 10
    23.44
 20
     3.31
 30
  0
  0
VERTEX
  8
STREAM
 10
    23.54
 20
     3.30
 30
  0
  0
VERTEX
  8
STREAM
 10
    23.80
 20
     3.37
 30
  0
  0
VERTEX
  8
STREAM
 10
    24.20
 20
     3.47
 30
  0
  0
VERTEX
  8
STREAM
 10
    24.46
 20
     3.54
 30
  0
  0
VERTEX
  8
STREAM
 10
    24.52
 20
     3.55
 30
  0
  0
VERTEX
  8
STREAM
 10
    24.56
 20
     3.56
 30
  0
  0
VERTEX
  8
STREAM
 10
    25.24
 20
     3.71
 30
  0
  0
VERTEX
  8
STREAM
 10
    25.34
 20
     3.75
 30
  0
  0
VERTEX
  8
STREAM
 10
    25.60
 20
     3.85
 30
  0
  0
VERTEX
  8
STREAM
 10
    25.84
 20
     3.92
 30
  0
  0
VERTEX
  8
STREAM
 10
    25.94
 20
     3.94
 30
  0
  0
VERTEX
  8
STREAM
 10
    25.94
 20
     3.94
 30
  0
  0
VERTEX
  8
STREAM
 10
    25.96
 20
     3.94
 30
  0
  0
VERTEX
  8
STREAM
 10
    26.06
 20
     3.93
 30
  0
  0
VERTEX
  8
STREAM
 10
    26.40
 20
     3.96
 30
  0
  0
VERTEX
  8
STREAM
 10
    27.20
 20
     4.10
 30
  0
  0
VERTEX
  8
STREAM
 10
    28.00
 20
     4.30
 30
  0
  0
VERTEX
  8
STREAM
 10
    28.60
 20
     4.42
 30
  0
  0
VERTEX
  8
STREAM
 10
    28.94
 20
     4.50
 30
  0
  0
VERTEX
  8
STREAM
 10
    29.04
 20
     4.60
 30
  0
  0
VERTEX
  8
STREAM
 10
    29.04
 20
     4.60
 30
  0
  0
VERTEX
  8
STREAM
 10
    29.06
 20
     4.60
 30
  0
  0
VERTEX
  8
STREAM
 10
    29.16
 20
     4.65
 30
  0
  0
VERTEX
  8
STREAM
 10
    29.60
 20
     4.75
 30
  0
  0
VERTEX
  8
STREAM
 10
    30.00
 20
     4.85
 30
  0
  0
SEQEND
  0
POLYLINE
  8
WS100
 66
     1
 70
   128
  0
VERTEX
  8
WS100
 10
    17.00
 20
     2.69
 30
  0
  0
VERTEX
  8
WS100
 10
    18.00
 20
     2.92
 30
  0
  0
VERTEX
  8
WS100
 10
    18.40
 20
     3.02
 30
  0
  0
VERTEX
  8
WS100
 10
    19.00
 20
     3.13
 30
  0
  0
VERTEX
  8
WS100
 10
    20.00
 20
     3.20
 30
  0
  0
VERTEX
  8
WS100
 10
    20.60
 20
     3.41
 30
  0
  0
VERTEX
  8
WS100
 10
    20.88
 20
     3.51
 30
  0
  0
VERTEX
  8
WS100
 10
    20.94
 20
     3.57
 30
  0
  0
VERTEX
  8
WS100
 10
    21.06
 20
     3.66
 30
  0
  0
VERTEX
  8
WS100
 10
    21.16
 20
     3.69
 30
  0
  0
VERTEX
  8
WS100
 10
    21.40
 20
     3.77
 30
  0
  0
VERTEX
  8
WS100
 10
    22.00
 20
     3.80
 30
  0
  0
VERTEX
  8
WS100
 10
    22.80
 20
     3.87
 30
  0
  0
VERTEX
  8
WS100
 10
    23.20
 20
     3.92
 30
  0
  0
VERTEX
  8
WS100
 10
    23.32
 20
     3.92
 30
  0
  0
VERTEX
  8
WS100
 10
    23.42
 20
     3.96
 30
  0
  0
VERTEX
  8
WS100
 10
    23.42
 20
     3.97
 30
  0
  0
VERTEX
  8
WS100
 10
    23.44
 20
     3.98
 30
  0
  0
VERTEX
  8
WS100
 10
    23.54
 20
     4.06
 30
  0
  0
VERTEX
  8
WS100
 10
    23.80
 20
     4.12
 30
  0
  0
VERTEX
  8
WS100
 10
    24.20
 20
     4.23
 30
  0
  0
VERTEX
  8
WS100
 10
    24.46
 20
     4.27
 30
  0
  0
VERTEX
  8
WS100
 10
    24.52
 20
     4.31
 30
  0
  0
VERTEX
  8
WS100
 10
    24.56
 20
     4.31
 30
  0
  0
VERTEX
  8
WS100
 10
    25.24
 20
     4.53
 30
  0
  0
VERTEX
  8
WS100
 10
    25.34
 20
     4.76
 30
  0
  0
VERTEX
  8
WS100
 10
    25.60
 20
     4.80
 30
  0
  0
VERTEX
  8
WS100
 10
    25.84
 20
     4.82
 30
  0
  0
VERTEX
  8
WS100
 10
    25.94
 20
     4.82
 30
  0
  0
VERTEX
  8
WS100
 10
    25.94
 20
     4.82
 30
  0
  0
VERTEX
  8
WS100
 10
    25.96
 20
     4.82
 30
  0
  0
VERTEX
  8
WS100
 10
    26.06
 20
     4.86
 30
  0
  0
VERTEX
  8
WS100
 10
    26.40
 20
     4.97
 30
  0
  0
VERTEX
  8
WS100
 10
    27.20
 20
     5.09
 30
  0
  0
VERTEX
  8
WS100
 10
    28.00
 20
     5.18
 30
  0
  0
VERTEX
  8
WS100
 10
    28.60
 20
     5.24
 30
  0
  0
VERTEX
  8
WS100
 10
    28.94
 20
     5.38
 30
  0
  0
VERTEX
  8
WS100
 10
    29.04
 20
     5.44
 30
  0
  0
VERTEX
  8
WS100
 10
    29.04
 20
     5.44
 30
  0
  0
VERTEX
  8
WS100
 10
    29.06
 20
     5.44
 30
  0
  0
VERTEX
  8
WS100
 10
    29.16
 20
     5.49
 30
  0
  0
VERTEX
  8
WS100
 10
    29.60
 20
     5.61
 30
  0
  0
VERTEX
  8
WS100
 10
    30.00
 20
     5.68
 30
  0
  0
SEQEND
  0
POLYLINE
  8
WS10
 66
     1
 70
   128
  0
VERTEX
  8
WS10
 10
    17.00
 20
     2.58
 30
  0
  0
VERTEX
  8
WS10
 10
    18.00
 20
     2.82
 30
  0
  0
VERTEX
  8
WS10
 10
    18.40
 20
     2.91
 30
  0
  0
VERTEX
  8
WS10
 10
    19.00
 20
     2.98
 30
  0
  0
VERTEX
  8
WS10
 10
    20.00
 20
     3.08
 30
  0
  0
VERTEX
  8
WS10
 10
    20.60
 20
     3.31
 30
  0
  0
VERTEX
  8
WS10
 10
    20.88
 20
     3.38
 30
  0
  0
VERTEX
  8
WS10
 10
    20.94
 20
     3.42
 30
  0
  0
VERTEX
  8
WS10
 10
    21.06
 20
     3.42
 30
  0
  0
VERTEX
  8
WS10
 10
    21.16
 20
     3.42
 30
  0
  0
VERTEX
  8
WS10
 10
    21.40
 20
     3.49
 30
  0
  0
VERTEX
  8
WS10
 10
    22.00
 20
     3.54
 30
  0
  0
VERTEX
  8
WS10
 10
    22.80
 20
     3.66
 30
  0
  0
VERTEX
  8
WS10
 10
    23.20
 20
     3.75
 30
  0
  0
VERTEX
  8
WS10
 10
    23.32
 20
     3.75
 30
  0
  0
VERTEX
  8
WS10
 10
    23.42
 20
     3.82
 30
  0
  0
VERTEX
  8
WS10
 10
    23.42
 20
     3.82
 30
  0
  0
VERTEX
  8
WS10
 10
    23.44
 20
     3.83
 30
  0
  0
VERTEX
  8
WS10
 10
    23.54
 20
     3.87
 30
  0
  0
VERTEX
  8
WS10
 10
    23.80
 20
     3.93
 30
  0
  0
VERTEX
  8
WS10
 10
    24.20
 20
     4.04
 30
  0
  0
VERTEX
  8
WS10
 10
    24.46
 20
     4.09
 30
  0
  0
VERTEX
  8
WS10
 10
    24.52
 20
     4.11
 30
  0
  0
VERTEX
  8
WS10
 10
    24.56
 20
     4.11
 30
  0
  0
VERTEX
  8
WS10
 10
    25.24
 20
     4.13
 30
  0
  0
VERTEX
  8
WS10
 10
    25.34
 20
     4.34
 30
  0
  0
VERTEX
  8
WS10
 10
    25.60
 20
     4.39
 30
  0
  0
VERTEX
  8
WS10
 10
    25.84
 20
     4.44
 30
  0
  0
VERTEX
  8
WS10
 10
    25.94
 20
     4.44
 30
  0
  0
VERTEX
  8
WS10
 10
    25.94
 20
     4.44
 30
  0
  0
VERTEX
  8
WS10
 10
    25.96
 20
     4.46
 30
  0
  0
VERTEX
  8
WS10
 10
    26.06
 20
     4.55
 30
  0
  0
VERTEX
  8
WS10
 10
    26.40
 20
     4.68
 30
  0
  0
VERTEX
  8
WS10
 10
    27.20
 20
     4.86
 30
  0
  0
VERTEX
  8
WS10
 10
    28.00
 20
     4.99
 30
  0
  0
VERTEX
  8
WS10
 10
    28.60
 20
     5.07
 30
  0
  0
VERTEX
  8
WS10
 10
    28.94
 20
     5.25
 30
  0
  0
VERTEX
  8
WS10
 10
    29.04
 20
     5.30
 30
  0
  0
VERTEX
  8
WS10
 10
    29.04
 20
     5.30
 30
  0
  0
VERTEX
  8
WS10
 10
    29.06
 20
     5.30
 30
  0
  0
VERTEX
  8
WS10
 10
    29.16
 20
     5.31
 30
  0
  0
VERTEX
  8
WS10
 10
    29.60
 20
     5.41
 30
  0
  0
VERTEX
  8
WS10
 10
    30.00
 20
     5.50
 30
  0
  0
SEQEND
  0
POLYLINE
  8
WS50
 66
     1
 70
   128
  0
VERTEX
  8
WS50
 10
    17.00
 20
     2.66
 30
  0
  0
VERTEX
  8
WS50
 10
    18.00
 20
     2.89
 30
  0
  0
VERTEX
  8
WS50
 10
    18.40
 20
     2.99
 30
  0
  0
VERTEX
  8
WS50
 10
    19.00
 20
     3.08
 30
  0
  0
VERTEX
  8
WS50
 10
    20.00
 20
     3.16
 30
  0
  0
VERTEX
  8
WS50
 10
    20.60
 20
     3.38
 30
  0
  0
VERTEX
  8
WS50
 10
    20.88
 20
     3.48
 30
  0
  0
VERTEX
  8
WS50
 10
    20.94
 20
     3.53
 30
  0
  0
VERTEX
  8
WS50
 10
    21.06
 20
     3.58
 30
  0
  0
VERTEX
  8
WS50
 10
    21.16
 20
     3.59
 30
  0
  0
VERTEX
  8
WS50
 10
    21.40
 20
     3.67
 30
  0
  0
VERTEX
  8
WS50
 10
    22.00
 20
     3.72
 30
  0
  0
VERTEX
  8
WS50
 10
    22.80
 20
     3.80
 30
  0
  0
VERTEX
  8
WS50
 10
    23.20
 20
     3.87
 30
  0
  0
VERTEX
  8
WS50
 10
    23.32
 20
     3.87
 30
  0
  0
VERTEX
  8
WS50
 10
    23.42
 20
     3.93
 30
  0
  0
VERTEX
  8
WS50
 10
    23.42
 20
     3.93
 30
  0
  0
VERTEX
  8
WS50
 10
    23.44
 20
     3.94
 30
  0
  0
VERTEX
  8
WS50
 10
    23.54
 20
     4.01
 30
  0
  0
VERTEX
  8
WS50
 10
    23.80
 20
     4.07
 30
  0
  0
VERTEX
  8
WS50
 10
    24.20
 20
     4.18
 30
  0
  0
VERTEX
  8
WS50
 10
    24.46
 20
     4.22
 30
  0
  0
VERTEX
  8
WS50
 10
    24.52
 20
     4.25
 30
  0
  0
VERTEX
  8
WS50
 10
    24.56
 20
     4.25
 30
  0
  0
VERTEX
  8
WS50
 10
    25.24
 20
     4.44
 30
  0
  0
VERTEX
  8
WS50
 10
    25.34
 20
     4.64
 30
  0
  0
VERTEX
  8
WS50
 10
    25.60
 20
     4.68
 30
  0
  0
VERTEX
  8
WS50
 10
    25.84
 20
     4.70
 30
  0
  0
VERTEX
  8
WS50
 10
    25.94
 20
     4.70
 30
  0
  0
VERTEX
  8
WS50
 10
    25.94
 20
     4.70
 30
  0
  0
VERTEX
  8
WS50
 10
    25.96
 20
     4.70
 30
  0
  0
VERTEX
  8
WS50
 10
    26.06
 20
     4.76
 30
  0
  0
VERTEX
  8
WS50
 10
    26.40
 20
     4.88
 30
  0
  0
VERTEX
  8
WS50
 10
    27.20
 20
     5.01
 30
  0
  0
VERTEX
  8
WS50
 10
    28.00
 20
     5.12
 30
  0
  0
VERTEX
  8
WS50
 10
    28.60
 20
     5.19
 30
  0
  0
VERTEX
  8
WS50
 10
    28.94
 20
     5.34
 30
  0
  0
VERTEX
  8
WS50
 10
    29.04
 20
     5.40
 30
  0
  0
VERTEX
  8
WS50
 10
    29.04
 20
     5.40
 30
  0
  0
VERTEX
  8
WS50
 10
    29.06
 20
     5.40
 30
  0
  0
VERTEX
  8
WS50
 10
    29.16
 20
     5.43
 30
  0
  0
VERTEX
  8
WS50
 10
    29.60
 20
     5.55
 30
  0
  0
VERTEX
  8
WS50
 10
    30.00
 20
     5.63
 30
  0
  0
SEQEND
  0
POLYLINE
  8
WS500
 66
     1
 70
   128
  0
VERTEX
  8
WS500
 10
    17.00
 20
     2.75
 30
  0
  0
VERTEX
  8
WS500
 10
    18.00
 20
     2.97
 30
  0
  0
VERTEX
  8
WS500
 10
    18.40
 20
     3.08
 30
  0
  0
VERTEX
  8
WS500
 10
    19.00
 20
     3.20
 30
  0
  0
VERTEX
  8
WS500
 10
    20.00
 20
     3.28
 30
  0
  0
VERTEX
  8
WS500
 10
    20.60
 20
     3.46
 30
  0
  0
VERTEX
  8
WS500
 10
    20.88
 20
     3.58
 30
  0
  0
VERTEX
  8
WS500
 10
    20.94
 20
     3.64
 30
  0
  0
VERTEX
  8
WS500
 10
    21.06
 20
     3.83
 30
  0
  0
VERTEX
  8
WS500
 10
    21.16
 20
     3.91
 30
  0
  0
VERTEX
  8
WS500
 10
    21.40
 20
     3.98
 30
  0
  0
VERTEX
  8
WS500
 10
    22.00
 20
     4.00
 30
  0
  0
VERTEX
  8
WS500
 10
    22.80
 20
     4.04
 30
  0
  0
VERTEX
  8
WS500
 10
    23.20
 20
     4.07
 30
  0
  0
VERTEX
  8
WS500
 10
    23.32
 20
     4.07
 30
  0
  0
VERTEX
  8
WS500
 10
    23.42
 20
     4.08
 30
  0
  0
VERTEX
  8
WS500
 10
    23.42
 20
     4.08
 30
  0
  0
VERTEX
  8
WS500
 10
    23.44
 20
     4.10
 30
  0
  0
VERTEX
  8
WS500
 10
    23.54
 20
     4.19
 30
  0
  0
VERTEX
  8
WS500
 10
    23.80
 20
     4.25
 30
  0
  0
VERTEX
  8
WS500
 10
    24.20
 20
     4.35
 30
  0
  0
VERTEX
  8
WS500
 10
    24.46
 20
     4.38
 30
  0
  0
VERTEX
  8
WS500
 10
    24.52
 20
     4.43
 30
  0
  0
VERTEX
  8
WS500
 10
    24.56
 20
     4.43
 30
  0
  0
VERTEX
  8
WS500
 10
    25.24
 20
     4.78
 30
  0
  0
VERTEX
  8
WS500
 10
    25.34
 20
     5.03
 30
  0
  0
VERTEX
  8
WS500
 10
    25.60
 20
     5.07
 30
  0
  0
VERTEX
  8
WS500
 10
    25.84
 20
     5.08
 30
  0
  0
VERTEX
  8
WS500
 10
    25.94
 20
     5.08
 30
  0
  0
VERTEX
  8
WS500
 10
    25.94
 20
     5.08
 30
  0
  0
VERTEX
  8
WS500
 10
    25.96
 20
     5.08
 30
  0
  0
VERTEX
  8
WS500
 10
    26.06
 20
     5.11
 30
  0
  0
VERTEX
  8
WS500
 10
    26.40
 20
     5.19
 30
  0
  0
VERTEX
  8
WS500
 10
    27.20
 20
     5.27
 30
  0
  0
VERTEX
  8
WS500
 10
    28.00
 20
     5.33
 30
  0
  0
VERTEX
  8
WS500
 10
    28.60
 20
     5.38
 30
  0
  0
VERTEX
  8
WS500
 10
    28.94
 20
     5.48
 30
  0
  0
VERTEX
  8
WS500
 10
    29.04
 20
     5.52
 30
  0
  0
VERTEX
  8
WS500
 10
    29.04
 20
     5.52
 30
  0
  0
VERTEX
  8
WS500
 10
    29.06
 20
     5.52
 30
  0
  0
VERTEX
  8
WS500
 10
    29.16
 20
     5.60
 30
  0
  0
VERTEX
  8
WS500
 10
    29.60
 20
     5.72
 30
  0
  0
VERTEX
  8
WS500
 10
    30.00
 20
     5.78
 30
  0
  0
SEQEND
  0
INSERT
  8
0
  2
XSEC
 10
    19.00
 20
     0.48
 30
  0
  0
TEXT
  8
0
 10
    18.94
 20
     0.42
 40
  0.1
  1
E
  0
INSERT
  8
0
  2
XSEC
 10
    21.16
 20
     0.48
 30
  0
  0
TEXT
  8
0
 10
    21.10
 20
     0.42
 40
  0.1
  1
F
  0
INSERT
  8
0
  2
XSEC
 10
    23.20
 20
     0.48
 30
  0
  0
TEXT
  8
0
 10
    23.14
 20
     0.42
 40
  0.1
  1
G
  0
INSERT
  8
0
  2
XSEC
 10
    24.46
 20
     0.48
 30
  0
  0
TEXT
  8
0
 10
    24.40
 20
     0.42
 40
  0.1
  1
H
  0
INSERT
  8
0
  2
XSEC
 10
    25.60
 20
     0.48
 30
  0
  0
TEXT
  8
0
 10
    25.54
 20
     0.42
 40
  0.1
  1
I
  0
INSERT
  8
0
  2
XSEC
 10
    28.60
 20
     2.48
 30
  0
  0
TEXT
  8
0
 10
    28.54
 20
     2.42
 40
  0.1
  1
J
  0
SOLID
  8
STRUCTURE
 10
    21.06
 20
     3.54
 30
  0
 11
    21.06
 21
     4.00
 31
  0
 12
    20.94
 22
     3.49
 32
  0
 13
    20.94
 23
     4.00
 33
  0
  0
INSERT
  8
0
  2
V_BASE
 10
    21.00
 20
     7.00
 30
  0
  0
TEXT
  8
0
 10
    20.95
 20
     7.45
 40
  0.1
 50
90.0
  1
 ZIGLAR ROAD 
 72
   1
 11
    20.95
 21
     7.45
  0
INSERT
  8
STRUCTURE
  2
BAR
 10
    23.43
 20
     4.84
 30
  0
  0
POLYLINE
  8
STRUCTURE
 66
     1
 70
   128
  0
VERTEX
  8
STRUCTURE
 10
    23.43
 20
     4.84
 30
  0
  0
VERTEX
  8
STRUCTURE
 10
    23.43
 20
     5.08
 30
  0
  0
SEQEND
  0
INSERT
  8
STRUCTURE
  2
BAR
 10
    23.43
 20
     5.08
 30
  0
  0
INSERT
  8
0
  2
V_BASE
 10
    23.43
 20
     7.00
 30
  0
  0
TEXT
  8
0
 10
    23.38
 20
     7.45
 40
  0.1
 50
90.0
  1
 NORFOLK SOUTHERN RR
 72
   1
 11
    23.38
 21
     7.45
  0
SOLID
  8
STRUCTURE
 10
    25.24
 20
     4.61
 30
  0
 11
    25.24
 21
     7.99
 31
  0
 12
    24.56
 22
     4.46
 32
  0
 13
    24.56
 23
     7.99
 33
  0
  0
INSERT
  8
0
  2
V_BASE
 10
    24.90
 20
     7.00
 30
  0
  0
TEXT
  8
0
 10
    24.85
 20
     7.45
 40
  0.1
 50
90.0
  1
 US 52
 72
   1
 11
    24.85
 21
     7.45
  0
INSERT
  8
STRUCTURE
  2
BAR
 10
    25.95
 20
     5.38
 30
  0
  0
POLYLINE
  8
STRUCTURE
 66
     1
 70
   128
  0
VERTEX
  8
STRUCTURE
 10
    25.95
 20
     5.38
 30
  0
  0
VERTEX
  8
STRUCTURE
 10
    25.95
 20
     5.61
 30
  0
  0
SEQEND
  0
INSERT
  8
STRUCTURE
  2
BAR
 10
    25.95
 20
     5.61
 30
  0
  0
INSERT
  8
0
  2
V_BASE
 10
    25.95
 20
     7.00
 30
  0
  0
TEXT
  8
0
 10
    25.90
 20
     7.45
 40
  0.1
 50
90.0
  1
 NORFOLK SOUTHERN RR
 72
   1
 11
    25.90
 21
     7.45
  0
INSERT
  8
STRUCTURE
  2
BAR
 10
    29.05
 20
     5.87
 30
  0
  0
POLYLINE
  8
STRUCTURE
 66
     1
 70
   128
  0
VERTEX
  8
STRUCTURE
 10
    29.05
 20
     5.87
 30
  0
  0
VERTEX
  8
STRUCTURE
 10
    29.05
 20
     6.10
 30
  0
  0
SEQEND
  0
INSERT
  8
STRUCTURE
  2
BAR
 10
    29.05
 20
     6.10
 30
  0
  0
INSERT
  8
0
  2
V_BASE
 10
    29.05
 20
     7.00
 30
  0
  0
TEXT
  8
0
 10
    29.00
 20
     7.45
 40
  0.1
 50
90.0
  1
 NORFOLK SOUTHERN RR
 72
   1
 11
    29.00
 21
     7.45
  0
INSERT
  8
ROCK
  2
ROCK
 10
    17.00
 20
     1.85
 30
  0
 50
    14.04
  0
INSERT
  8
ROCK
  2
ROCK
 10
    19.00
 20
     2.30
 30
  0
 50
    11.31
  0
INSERT
  8
ROCK
  2
ROCK
 10
    22.00
 20
     2.80
 30
  0
 50
    14.04
  0
INSERT
  8
ROCK
  2
ROCK
 10
    26.40
 20
     3.96
 30
  0
 50
     9.93
  0
INSERT
  8
ROCK
  2
ROCK
 10
    27.20
 20
     4.10
 30
  0
 50
    14.04
  0
TEXT
  8
0
 10
    33.95
 20
    -0.20
 40
  0.1
  1
 13000
 72
   1
 11
    33.95
 21
    -0.20
  0
TEXT
  8
0
 10
    34.95
 20
    -0.20
 40
  0.1
  1
 13500
 72
   1
 11
    34.95
 21
    -0.20
  0
TEXT
  8
0
 10
    35.95
 20
    -0.20
 40
  0.1
  1
 14000
 72
   1
 11
    35.95
 21
    -0.20
  0
TEXT
  8
0
 10
    36.95
 20
    -0.20
 40
  0.1
  1
 14500
 72
   1
 11
    36.95
 21
    -0.20
  0
TEXT
  8
0
 10
    37.95
 20
    -0.20
 40
  0.1
  1
 15000
 72
   1
 11
    37.95
 21
    -0.20
  0
TEXT
  8
0
 10
    38.95
 20
    -0.20
 40
  0.1
  1
 15500
 72
   1
 11
    38.95
 21
    -0.20
  0
TEXT
  8
0
 10
    39.95
 20
    -0.20
 40
  0.1
  1
 16000
 72
   1
 11
    39.95
 21
    -0.20
  0
TEXT
  8
0
 10
    40.95
 20
    -0.20
 40
  0.1
  1
 16500
 72
   1
 11
    40.95
 21
    -0.20
  0
TEXT
  8
0
 10
    41.95
 20
    -0.20
 40
  0.1
  1
 17000
 72
   1
 11
    41.95
 21
    -0.20
  0
TEXT
  8
0
 10
    42.95
 20
    -0.20
 40
  0.1
  1
 17500
 72
   1
 11
    42.95
 21
    -0.20
  0
TEXT
  8
0
 10
    43.95
 20
    -0.20
 40
  0.1
  1
 18000
 72
   1
 11
    43.95
 21
    -0.20
  0
TEXT
  8
0
 10
    44.95
 20
    -0.20
 40
  0.1
  1
 18500
 72
   1
 11
    44.95
 21
    -0.20
  0
TEXT
  8
0
 10
    45.95
 20
    -0.20
 40
  0.1
  1
 19000
 72
   1
 11
    45.95
 21
    -0.20
  0
TEXT
  8
0
 10
    46.95
 20
    -0.20
 40
  0.1
  1
 19500
 72
   1
 11
    46.95
 21
    -0.20
  0
TEXT
  8
0
 10
    33.25
 20
    -0.05
 40
  0.1
  1
    810
  0
TEXT
  8
0
 10
    46.90
 20
    -0.05
 40
  0.1
  1
  810
  0
TEXT
  8
0
 10
    33.25
 20
     0.95
 40
  0.1
  1
    820
  0
TEXT
  8
0
 10
    46.90
 20
     0.95
 40
  0.1
  1
  820
  0
TEXT
  8
0
 10
    33.25
 20
     1.95
 40
  0.1
  1
    830
  0
TEXT
  8
0
 10
    46.90
 20
     1.95
 40
  0.1
  1
  830
  0
TEXT
  8
0
 10
    33.25
 20
     2.95
 40
  0.1
  1
    840
  0
TEXT
  8
0
 10
    46.90
 20
     2.95
 40
  0.1
  1
  840
  0
TEXT
  8
0
 10
    33.25
 20
     3.95
 40
  0.1
  1
    850
  0
TEXT
  8
0
 10
    46.90
 20
     3.95
 40
  0.1
  1
  850
  0
TEXT
  8
0
 10
    33.25
 20
     4.95
 40
  0.1
  1
    860
  0
TEXT
  8
0
 10
    46.90
 20
     4.95
 40
  0.1
  1
  860
  0
TEXT
  8
0
 10
    33.25
 20
     5.95
 40
  0.1
  1
    870
  0
TEXT
  8
0
 10
    46.90
 20
     5.95
 40
  0.1
  1
  870
  0
TEXT
  8
0
 10
    33.25
 20
     6.95
 40
  0.1
  1
    880
  0
TEXT
  8
0
 10
    46.90
 20
     6.95
 40
  0.1
  1
  880
  0
TEXT
  8
0
 10
    33.25
 20
     7.95
 40
  0.1
  1
    890
  0
TEXT
  8
0
 10
    46.90
 20
     7.95
 40
  0.1
  1
  890
  0
TEXT
  8
0
 10
    33.25
 20
     8.95
 40
  0.1
  1
    900
  0
TEXT
  8
0
 10
    46.90
 20
     8.95
 40
  0.1
  1
  900
  0
INSERT
  8
0
  2
BORDER
 10
    34.00
 20
     0.00
 30
  0
  0
TEXT
  8
0
 10
    48.00
 20
    -0.65
 40
  0.2
 7
ROMANT
  1
3P
 72
   1
 11
    48.00
 21
    -0.65
  0
TEXT
  8
0
 10
    34.00
 20
    -0.60
 40
 0.1
 7
ROMANT
  1
STREAM DISTANCE IN FEET  
 72
   1
 11
    40.50
 21
    -0.60
  0
TEXT
  8
0
 10
    48.10
 20
    -0.20
 40
 0.1
 7
ROMANT
 50
90.0
  1
 WINSTON-SALEM/FORSYTH CO., NC
 72
   1
 11
    48.10
 21
     1.50
  0
TEXT
  8
0
 10
    48.40
 20
    -0.20
 40
 0.1
 50
90.0
  1
 FORSYTH
 72
   1
 11
    48.40
 21
     1.50
  0
TEXT
  8
0
 10
    48.30
 20
     6.30
 40
 0.15
 50
90.0
  1
 GRASSY CREEK
 72
   1
 11
    48.30
 21
     6.30
  0
POLYLINE
  8
STREAM
 66
     1
 70
   128
  0
VERTEX
  8
STREAM
 10
    34.00
 20
     1.85
 30
  0
  0
VERTEX
  8
STREAM
 10
    34.40
 20
     1.95
 30
  0
  0
VERTEX
  8
STREAM
 10
    35.00
 20
     2.07
 30
  0
  0
VERTEX
  8
STREAM
 10
    35.14
 20
     2.15
 30
  0
  0
VERTEX
  8
STREAM
 10
    35.24
 20
     2.19
 30
  0
  0
VERTEX
  8
STREAM
 10
    35.56
 20
     2.25
 30
  0
  0
VERTEX
  8
STREAM
 10
    35.66
 20
     2.26
 30
  0
  0
VERTEX
  8
STREAM
 10
    36.04
 20
     2.55
 30
  0
  0
VERTEX
  8
STREAM
 10
    36.14
 20
     2.53
 30
  0
  0
VERTEX
  8
STREAM
 10
    36.14
 20
     2.53
 30
  0
  0
VERTEX
  8
STREAM
 10
    36.16
 20
     2.53
 30
  0
  0
VERTEX
  8
STREAM
 10
    36.26
 20
     2.53
 30
  0
  0
VERTEX
  8
STREAM
 10
    36.40
 20
     2.57
 30
  0
  0
VERTEX
  8
STREAM
 10
    36.60
 20
     2.64
 30
  0
  0
VERTEX
  8
STREAM
 10
    36.80
 20
     2.71
 30
  0
  0
VERTEX
  8
STREAM
 10
    37.00
 20
     2.78
 30
  0
  0
VERTEX
  8
STREAM
 10
    37.70
 20
     2.95
 30
  0
  0
VERTEX
  8
STREAM
 10
    38.30
 20
     3.15
 30
  0
  0
VERTEX
  8
STREAM
 10
    39.10
 20
     3.39
 30
  0
  0
VERTEX
  8
STREAM
 10
    40.00
 20
     3.62
 30
  0
  0
VERTEX
  8
STREAM
 10
    40.80
 20
     3.86
 30
  0
  0
VERTEX
  8
STREAM
 10
    41.60
 20
     4.13
 30
  0
  0
VERTEX
  8
STREAM
 10
    42.40
 20
     4.36
 30
  0
  0
VERTEX
  8
STREAM
 10
    43.20
 20
     4.60
 30
  0
  0
VERTEX
  8
STREAM
 10
    44.00
 20
     4.80
 30
  0
  0
VERTEX
  8
STREAM
 10
    44.80
 20
     5.00
 30
  0
  0
VERTEX
  8
STREAM
 10
    45.60
 20
     5.20
 30
  0
  0
VERTEX
  8
STREAM
 10
    46.00
 20
     5.32
 30
  0
  0
VERTEX
  8
STREAM
 10
    46.40
 20
     5.42
 30
  0
  0
VERTEX
  8
STREAM
 10
    46.80
 20
     5.52
 30
  0
  0
VERTEX
  8
STREAM
 10
    47.00
 20
     5.57
 30
  0
  0
SEQEND
  0
POLYLINE
  8
WS100
 66
     1
 70
   128
  0
VERTEX
  8
WS100
 10
    34.00
 20
     2.68
 30
  0
  0
VERTEX
  8
WS100
 10
    34.40
 20
     2.75
 30
  0
  0
VERTEX
  8
WS100
 10
    35.00
 20
     2.83
 30
  0
  0
VERTEX
  8
WS100
 10
    35.14
 20
     2.84
 30
  0
  0
VERTEX
  8
WS100
 10
    35.24
 20
     2.84
 30
  0
  0
VERTEX
  8
WS100
 10
    35.56
 20
     3.05
 30
  0
  0
VERTEX
  8
WS100
 10
    35.66
 20
     3.29
 30
  0
  0
VERTEX
  8
WS100
 10
    36.04
 20
     3.33
 30
  0
  0
VERTEX
  8
WS100
 10
    36.14
 20
     3.33
 30
  0
  0
VERTEX
  8
WS100
 10
    36.14
 20
     3.33
 30
  0
  0
VERTEX
  8
WS100
 10
    36.16
 20
     3.33
 30
  0
  0
VERTEX
  8
WS100
 10
    36.26
 20
     3.33
 30
  0
  0
VERTEX
  8
WS100
 10
    36.40
 20
     3.58
 30
  0
  0
VERTEX
  8
WS100
 10
    36.60
 20
     3.67
 30
  0
  0
VERTEX
  8
WS100
 10
    36.80
 20
     3.71
 30
  0
  0
VERTEX
  8
WS100
 10
    37.00
 20
     3.76
 30
  0
  0
VERTEX
  8
WS100
 10
    37.70
 20
     3.94
 30
  0
  0
VERTEX
  8
WS100
 10
    38.30
 20
     4.10
 30
  0
  0
VERTEX
  8
WS100
 10
    39.10
 20
     4.35
 30
  0
  0
VERTEX
  8
WS100
 10
    40.00
 20
     4.58
 30
  0
  0
VERTEX
  8
WS100
 10
    40.80
 20
     4.74
 30
  0
  0
VERTEX
  8
WS100
 10
    41.60
 20
     4.98
 30
  0
  0
VERTEX
  8
WS100
 10
    42.40
 20
     5.24
 30
  0
  0
VERTEX
  8
WS100
 10
    43.20
 20
     5.47
 30
  0
  0
VERTEX
  8
WS100
 10
    44.00
 20
     5.70
 30
  0
  0
VERTEX
  8
WS100
 10
    44.80
 20
     5.90
 30
  0
  0
VERTEX
  8
WS100
 10
    45.60
 20
     6.10
 30
  0
  0
VERTEX
  8
WS100
 10
    46.00
 20
     6.21
 30
  0
  0
VERTEX
  8
WS100
 10
    46.40
 20
     6.24
 30
  0
  0
VERTEX
  8
WS100
 10
    46.80
 20
     6.25
 30
  0
  0
VERTEX
  8
WS100
 10
    47.00
 20
     6.27
 30
  0
  0
SEQEND
  0
POLYLINE
  8
WS10
 66
     1
 70
   128
  0
VERTEX
  8
WS10
 10
    34.00
 20
     2.50
 30
  0
  0
VERTEX
  8
WS10
 10
    34.40
 20
     2.59
 30
  0
  0
VERTEX
  8
WS10
 10
    35.00
 20
     2.70
 30
  0
  0
VERTEX
  8
WS10
 10
    35.14
 20
     2.72
 30
  0
  0
VERTEX
  8
WS10
 10
    35.24
 20
     2.72
 30
  0
  0
VERTEX
  8
WS10
 10
    35.56
 20
     2.75
 30
  0
  0
VERTEX
  8
WS10
 10
    35.66
 20
     2.88
 30
  0
  0
VERTEX
  8
WS10
 10
    36.04
 20
     3.01
 30
  0
  0
VERTEX
  8
WS10
 10
    36.14
 20
     3.03
 30
  0
  0
VERTEX
  8
WS10
 10
    36.14
 20
     3.04
 30
  0
  0
VERTEX
  8
WS10
 10
    36.16
 20
     3.04
 30
  0
  0
VERTEX
  8
WS10
 10
    36.26
 20
     3.05
 30
  0
  0
VERTEX
  8
WS10
 10
    36.40
 20
     3.31
 30
  0
  0
VERTEX
  8
WS10
 10
    36.60
 20
     3.40
 30
  0
  0
VERTEX
  8
WS10
 10
    36.80
 20
     3.45
 30
  0
  0
VERTEX
  8
WS10
 10
    37.00
 20
     3.50
 30
  0
  0
VERTEX
  8
WS10
 10
    37.70
 20
     3.70
 30
  0
  0
VERTEX
  8
WS10
 10
    38.30
 20
     3.87
 30
  0
  0
VERTEX
  8
WS10
 10
    39.10
 20
     4.12
 30
  0
  0
VERTEX
  8
WS10
 10
    40.00
 20
     4.33
 30
  0
  0
VERTEX
  8
WS10
 10
    40.80
 20
     4.50
 30
  0
  0
VERTEX
  8
WS10
 10
    41.60
 20
     4.73
 30
  0
  0
VERTEX
  8
WS10
 10
    42.40
 20
     4.99
 30
  0
  0
VERTEX
  8
WS10
 10
    43.20
 20
     5.22
 30
  0
  0
VERTEX
  8
WS10
 10
    44.00
 20
     5.45
 30
  0
  0
VERTEX
  8
WS10
 10
    44.80
 20
     5.65
 30
  0
  0
VERTEX
  8
WS10
 10
    45.60
 20
     5.85
 30
  0
  0
VERTEX
  8
WS10
 10
    46.00
 20
     5.96
 30
  0
  0
VERTEX
  8
WS10
 10
    46.40
 20
     6.00
 30
  0
  0
VERTEX
  8
WS10
 10
    46.80
 20
     6.06
 30
  0
  0
VERTEX
  8
WS10
 10
    47.00
 20
     6.11
 30
  0
  0
SEQEND
  0
POLYLINE
  8
WS50
 66
     1
 70
   128
  0
VERTEX
  8
WS50
 10
    34.00
 20
     2.63
 30
  0
  0
VERTEX
  8
WS50
 10
    34.40
 20
     2.70
 30
  0
  0
VERTEX
  8
WS50
 10
    35.00
 20
     2.79
 30
  0
  0
VERTEX
  8
WS50
 10
    35.14
 20
     2.81
 30
  0
  0
VERTEX
  8
WS50
 10
    35.24
 20
     2.81
 30
  0
  0
VERTEX
  8
WS50
 10
    35.56
 20
     2.95
 30
  0
  0
VERTEX
  8
WS50
 10
    35.66
 20
     3.17
 30
  0
  0
VERTEX
  8
WS50
 10
    36.04
 20
     3.22
 30
  0
  0
VERTEX
  8
WS50
 10
    36.14
 20
     3.22
 30
  0
  0
VERTEX
  8
WS50
 10
    36.14
 20
     3.22
 30
  0
  0
VERTEX
  8
WS50
 10
    36.16
 20
     3.22
 30
  0
  0
VERTEX
  8
WS50
 10
    36.26
 20
     3.26
 30
  0
  0
VERTEX
  8
WS50
 10
    36.40
 20
     3.51
 30
  0
  0
VERTEX
  8
WS50
 10
    36.60
 20
     3.60
 30
  0
  0
VERTEX
  8
WS50
 10
    36.80
 20
     3.64
 30
  0
  0
VERTEX
  8
WS50
 10
    37.00
 20
     3.69
 30
  0
  0
VERTEX
  8
WS50
 10
    37.70
 20
     3.87
 30
  0
  0
VERTEX
  8
WS50
 10
    38.30
 20
     4.03
 30
  0
  0
VERTEX
  8
WS50
 10
    39.10
 20
     4.28
 30
  0
  0
VERTEX
  8
WS50
 10
    40.00
 20
     4.51
 30
  0
  0
VERTEX
  8
WS50
 10
    40.80
 20
     4.68
 30
  0
  0
VERTEX
  8
WS50
 10
    41.60
 20
     4.92
 30
  0
  0
VERTEX
  8
WS50
 10
    42.40
 20
     5.18
 30
  0
  0
VERTEX
  8
WS50
 10
    43.20
 20
     5.41
 30
  0
  0
VERTEX
  8
WS50
 10
    44.00
 20
     5.64
 30
  0
  0
VERTEX
  8
WS50
 10
    44.80
 20
     5.84
 30
  0
  0
VERTEX
  8
WS50
 10
    45.60
 20
     6.04
 30
  0
  0
VERTEX
  8
WS50
 10
    46.00
 20
     6.15
 30
  0
  0
VERTEX
  8
WS50
 10
    46.40
 20
     6.17
 30
  0
  0
VERTEX
  8
WS50
 10
    46.80
 20
     6.19
 30
  0
  0
VERTEX
  8
WS50
 10
    47.00
 20
     6.21
 30
  0
  0
SEQEND
  0
POLYLINE
  8
WS500
 66
     1
 70
   128
  0
VERTEX
  8
WS500
 10
    34.00
 20
     2.78
 30
  0
  0
VERTEX
  8
WS500
 10
    34.40
 20
     2.84
 30
  0
  0
VERTEX
  8
WS500
 10
    35.00
 20
     2.92
 30
  0
  0
VERTEX
  8
WS500
 10
    35.14
 20
     2.92
 30
  0
  0
VERTEX
  8
WS500
 10
    35.24
 20
     3.00
 30
  0
  0
VERTEX
  8
WS500
 10
    35.56
 20
     3.39
 30
  0
  0
VERTEX
  8
WS500
 10
    35.66
 20
     3.61
 30
  0
  0
VERTEX
  8
WS500
 10
    36.04
 20
     3.63
 30
  0
  0
VERTEX
  8
WS500
 10
    36.14
 20
     3.63
 30
  0
  0
VERTEX
  8
WS500
 10
    36.14
 20
     3.63
 30
  0
  0
VERTEX
  8
WS500
 10
    36.16
 20
     3.63
 30
  0
  0
VERTEX
  8
WS500
 10
    36.26
 20
     3.63
 30
  0
  0
VERTEX
  8
WS500
 10
    36.40
 20
     3.72
 30
  0
  0
VERTEX
  8
WS500
 10
    36.60
 20
     3.81
 30
  0
  0
VERTEX
  8
WS500
 10
    36.80
 20
     3.85
 30
  0
  0
VERTEX
  8
WS500
 10
    37.00
 20
     3.90
 30
  0
  0
VERTEX
  8
WS500
 10
    37.70
 20
     4.07
 30
  0
  0
VERTEX
  8
WS500
 10
    38.30
 20
     4.23
 30
  0
  0
VERTEX
  8
WS500
 10
    39.10
 20
     4.47
 30
  0
  0
VERTEX
  8
WS500
 10
    40.00
 20
     4.70
 30
  0
  0
VERTEX
  8
WS500
 10
    40.80
 20
     4.84
 30
  0
  0
VERTEX
  8
WS500
 10
    41.60
 20
     5.09
 30
  0
  0
VERTEX
  8
WS500
 10
    42.40
 20
     5.35
 30
  0
  0
VERTEX
  8
WS500
 10
    43.20
 20
     5.58
 30
  0
  0
VERTEX
  8
WS500
 10
    44.00
 20
     5.81
 30
  0
  0
VERTEX
  8
WS500
 10
    44.80
 20
     6.01
 30
  0
  0
VERTEX
  8
WS500
 10
    45.60
 20
     6.21
 30
  0
  0
VERTEX
  8
WS500
 10
    46.00
 20
     6.32
 30
  0
  0
VERTEX
  8
WS500
 10
    46.40
 20
     6.35
 30
  0
  0
VERTEX
  8
WS500
 10
    46.80
 20
     6.36
 30
  0
  0
VERTEX
  8
WS500
 10
    47.00
 20
     6.37
 30
  0
  0
SEQEND
  0
INSERT
  8
0
  2
XSEC
 10
    35.00
 20
     0.48
 30
  0
  0
TEXT
  8
0
 10
    34.94
 20
     0.42
 40
  0.1
  1
K
  0
INSERT
  8
0
  2
XSEC
 10
    35.66
 20
     0.48
 30
  0
  0
TEXT
  8
0
 10
    35.60
 20
     0.42
 40
  0.1
  1
L
  0
INSERT
  8
0
  2
XSEC
 10
    38.30
 20
     0.48
 30
  0
  0
TEXT
  8
0
 10
    38.24
 20
     0.42
 40
  0.1
  1
M
  0
INSERT
  8
0
  2
XSEC
 10
    44.00
 20
     2.48
 30
  0
  0
TEXT
  8
0
 10
    43.94
 20
     2.42
 40
  0.1
  1
N
  0
INSERT
  8
0
  2
XSEC
 10
    46.40
 20
     2.48
 30
  0
  0
TEXT
  8
0
 10
    46.34
 20
     2.42
 40
  0.1
  1
O
  0
SOLID
  8
STRUCTURE
 10
    35.56
 20
     2.99
 30
  0
 11
    35.56
 21
     5.20
 31
  0
 12
    35.24
 22
     2.93
 32
  0
 13
    35.24
 23
     5.20
 33
  0
  0
INSERT
  8
0
  2
V_BASE
 10
    35.40
 20
     7.00
 30
  0
  0
TEXT
  8
0
 10
    35.35
 20
     7.45
 40
  0.1
 50
90.0
  1
 NC 66 
 72
   1
 11
    35.35
 21
     7.45
  0
INSERT
  8
STRUCTURE
  2
BAR
 10
    36.15
 20
     3.42
 30
  0
  0
POLYLINE
  8
STRUCTURE
 66
     1
 70
   128
  0
VERTEX
  8
STRUCTURE
 10
    36.15
 20
     3.42
 30
  0
  0
VERTEX
  8
STRUCTURE
 10
    36.15
 20
     3.65
 30
  0
  0
SEQEND
  0
INSERT
  8
STRUCTURE
  2
BAR
 10
    36.15
 20
     3.65
 30
  0
  0
INSERT
  8
0
  2
V_BASE
 10
    36.15
 20
     7.00
 30
  0
  0
TEXT
  8
0
 10
    36.10
 20
     7.45
 40
  0.1
 50
90.0
  1
 NORFOLK SOUTHERN RR
 72
   1
 11
    36.10
 21
     7.45
  0
INSERT
  8
ROCK
  2
ROCK
 10
    38.30
 20
     3.15
 30
  0
 50
    16.70
  0
INSERT
  8
ROCK
  2
ROCK
 10
    39.10
 20
     3.39
 30
  0
 50
    14.34
  0
INSERT
  8
ROCK
  2
ROCK
 10
    40.00
 20
     3.62
 30
  0
 50
    16.70
  0
INSERT
  8
ROCK
  2
ROCK
 10
    40.80
 20
     3.86
 30
  0
 50
    18.65
  0
INSERT
  8
ROCK
  2
ROCK
 10
    41.60
 20
     4.13
 30
  0
 50
    16.04
  0
INSERT
  8
ROCK
  2
ROCK
 10
    42.40
 20
     4.36
 30
  0
 50
    16.70
  0
TEXT
  8
0
 10
    50.95
 20
    -0.20
 40
  0.1
  1
 19500
 72
   1
 11
    50.95
 21
    -0.20
  0
TEXT
  8
0
 10
    51.95
 20
    -0.20
 40
  0.1
  1
 20000
 72
   1
 11
    51.95
 21
    -0.20
  0
TEXT
  8
0
 10
    52.95
 20
    -0.20
 40
  0.1
  1
 20500
 72
   1
 11
    52.95
 21
    -0.20
  0
TEXT
  8
0
 10
    53.95
 20
    -0.20
 40
  0.1
  1
 21000
 72
   1
 11
    53.95
 21
    -0.20
  0
TEXT
  8
0
 10
    54.95
 20
    -0.20
 40
  0.1
  1
 21500
 72
   1
 11
    54.95
 21
    -0.20
  0
TEXT
  8
0
 10
    55.95
 20
    -0.20
 40
  0.1
  1
 22000
 72
   1
 11
    55.95
 21
    -0.20
  0
TEXT
  8
0
 10
    56.95
 20
    -0.20
 40
  0.1
  1
 22500
 72
   1
 11
    56.95
 21
    -0.20
  0
TEXT
  8
0
 10
    57.95
 20
    -0.20
 40
  0.1
  1
 23000
 72
   1
 11
    57.95
 21
    -0.20
  0
TEXT
  8
0
 10
    58.95
 20
    -0.20
 40
  0.1
  1
 23500
 72
   1
 11
    58.95
 21
    -0.20
  0
TEXT
  8
0
 10
    59.95
 20
    -0.20
 40
  0.1
  1
 24000
 72
   1
 11
    59.95
 21
    -0.20
  0
TEXT
  8
0
 10
    60.95
 20
    -0.20
 40
  0.1
  1
 24500
 72
   1
 11
    60.95
 21
    -0.20
  0
TEXT
  8
0
 10
    61.95
 20
    -0.20
 40
  0.1
  1
 25000
 72
   1
 11
    61.95
 21
    -0.20
  0
TEXT
  8
0
 10
    62.95
 20
    -0.20
 40
  0.1
  1
 25500
 72
   1
 11
    62.95
 21
    -0.20
  0
TEXT
  8
0
 10
    63.95
 20
    -0.20
 40
  0.1
  1
 26000
 72
   1
 11
    63.95
 21
    -0.20
  0
TEXT
  8
0
 10
    50.25
 20
    -0.05
 40
  0.1
  1
    860
  0
TEXT
  8
0
 10
    63.90
 20
    -0.05
 40
  0.1
  1
  860
  0
TEXT
  8
0
 10
    50.25
 20
     0.95
 40
  0.1
  1
    870
  0
TEXT
  8
0
 10
    63.90
 20
     0.95
 40
  0.1
  1
  870
  0
TEXT
  8
0
 10
    50.25
 20
     1.95
 40
  0.1
  1
    880
  0
TEXT
  8
0
 10
    63.90
 20
     1.95
 40
  0.1
  1
  880
  0
TEXT
  8
0
 10
    50.25
 20
     2.95
 40
  0.1
  1
    890
  0
TEXT
  8
0
 10
    63.90
 20
     2.95
 40
  0.1
  1
  890
  0
TEXT
  8
0
 10
    50.25
 20
     3.95
 40
  0.1
  1
    900
  0
TEXT
  8
0
 10
    63.90
 20
     3.95
 40
  0.1
  1
  900
  0
TEXT
  8
0
 10
    50.25
 20
     4.95
 40
  0.1
  1
    910
  0
TEXT
  8
0
 10
    63.90
 20
     4.95
 40
  0.1
  1
  910
  0
TEXT
  8
0
 10
    50.25
 20
     5.95
 40
  0.1
  1
    920
  0
TEXT
  8
0
 10
    63.90
 20
     5.95
 40
  0.1
  1
  920
  0
TEXT
  8
0
 10
    50.25
 20
     6.95
 40
  0.1
  1
    930
  0
TEXT
  8
0
 10
    63.90
 20
     6.95
 40
  0.1
  1
  930
  0
TEXT
  8
0
 10
    50.25
 20
     7.95
 40
  0.1
  1
    940
  0
TEXT
  8
0
 10
    63.90
 20
     7.95
 40
  0.1
  1
  940
  0
TEXT
  8
0
 10
    50.25
 20
     8.95
 40
  0.1
  1
    950
  0
TEXT
  8
0
 10
    63.90
 20
     8.95
 40
  0.1
  1
  950
  0
INSERT
  8
0
  2
BORDER
 10
    51.00
 20
     0.00
 30
  0
  0
TEXT
  8
0
 10
    65.00
 20
    -0.65
 40
  0.2
 7
ROMANT
  1
4P
 72
   1
 11
    65.00
 21
    -0.65
  0
TEXT
  8
0
 10
    51.00
 20
    -0.60
 40
 0.1
 7
ROMANT
  1
STREAM DISTANCE IN FEET  
 72
   1
 11
    57.50
 21
    -0.60
  0
TEXT
  8
0
 10
    65.10
 20
    -0.20
 40
 0.1
 7
ROMANT
 50
90.0
  1
 WINSTON-SALEM/FORSYTH CO., NC
 72
   1
 11
    65.10
 21
     1.50
  0
TEXT
  8
0
 10
    65.40
 20
    -0.20
 40
 0.1
 50
90.0
  1
 FORSYTH
 72
   1
 11
    65.40
 21
     1.50
  0
TEXT
  8
0
 10
    65.30
 20
     6.30
 40
 0.15
 50
90.0
  1
 GRASSY CREEK
 72
   1
 11
    65.30
 21
     6.30
  0
POLYLINE
  8
STREAM
 66
     1
 70
   128
  0
VERTEX
  8
STREAM
 10
    51.00
 20
     0.57
 30
  0
  0
VERTEX
  8
STREAM
 10
    51.20
 20
     0.62
 30
  0
  0
VERTEX
  8
STREAM
 10
    51.60
 20
     0.72
 30
  0
  0
VERTEX
  8
STREAM
 10
    52.00
 20
     0.82
 30
  0
  0
VERTEX
  8
STREAM
 10
    52.40
 20
     0.92
 30
  0
  0
VERTEX
  8
STREAM
 10
    53.00
 20
     1.07
 30
  0
  0
VERTEX
  8
STREAM
 10
    53.70
 20
     1.24
 30
  0
  0
VERTEX
  8
STREAM
 10
    56.90
 20
     2.65
 30
  0
  0
VERTEX
  8
STREAM
 10
    56.99
 20
     2.66
 30
  0
  0
VERTEX
  8
STREAM
 10
    57.09
 20
     2.88
 30
  0
  0
VERTEX
  8
STREAM
 10
    57.09
 20
     2.88
 30
  0
  0
VERTEX
  8
STREAM
 10
    57.11
 20
     2.88
 30
  0
  0
VERTEX
  8
STREAM
 10
    57.11
 20
     2.88
 30
  0
  0
VERTEX
  8
STREAM
 10
    57.21
 20
     2.91
 30
  0
  0
VERTEX
  8
STREAM
 10
    57.30
 20
     3.12
 30
  0
  0
VERTEX
  8
STREAM
 10
    58.70
 20
     3.45
 30
  0
  0
VERTEX
  8
STREAM
 10
    61.00
 20
     5.56
 30
  0
  0
SEQEND
  0
POLYLINE
  8
WS100
 66
     1
 70
   128
  0
VERTEX
  8
WS100
 10
    51.00
 20
     1.27
 30
  0
  0
VERTEX
  8
WS100
 10
    51.20
 20
     1.29
 30
  0
  0
VERTEX
  8
WS100
 10
    51.60
 20
     1.35
 30
  0
  0
VERTEX
  8
WS100
 10
    52.00
 20
     1.44
 30
  0
  0
VERTEX
  8
WS100
 10
    52.40
 20
     1.54
 30
  0
  0
VERTEX
  8
WS100
 10
    53.00
 20
     1.69
 30
  0
  0
VERTEX
  8
WS100
 10
    53.70
 20
     1.86
 30
  0
  0
VERTEX
  8
WS100
 10
    56.90
 20
     3.34
 30
  0
  0
VERTEX
  8
WS100
 10
    56.99
 20
     3.47
 30
  0
  0
VERTEX
  8
WS100
 10
    57.09
 20
     3.52
 30
  0
  0
VERTEX
  8
WS100
 10
    57.09
 20
     3.52
 30
  0
  0
VERTEX
  8
WS100
 10
    57.11
 20
     3.61
 30
  0
  0
VERTEX
  8
WS100
 10
    57.11
 20
     3.63
 30
  0
  0
VERTEX
  8
WS100
 10
    57.21
 20
     3.63
 30
  0
  0
VERTEX
  8
WS100
 10
    57.30
 20
     3.81
 30
  0
  0
VERTEX
  8
WS100
 10
    58.70
 20
     4.24
 30
  0
  0
VERTEX
  8
WS100
 10
    61.00
 20
     6.29
 30
  0
  0
SEQEND
  0
POLYLINE
  8
WS10
 66
     1
 70
   128
  0
VERTEX
  8
WS10
 10
    51.00
 20
     1.11
 30
  0
  0
VERTEX
  8
WS10
 10
    51.20
 20
     1.16
 30
  0
  0
VERTEX
  8
WS10
 10
    51.60
 20
     1.26
 30
  0
  0
VERTEX
  8
WS10
 10
    52.00
 20
     1.36
 30
  0
  0
VERTEX
  8
WS10
 10
    52.40
 20
     1.46
 30
  0
  0
VERTEX
  8
WS10
 10
    53.00
 20
     1.61
 30
  0
  0
VERTEX
  8
WS10
 10
    53.70
 20
     1.78
 30
  0
  0
VERTEX
  8
WS10
 10
    56.90
 20
     3.13
 30
  0
  0
VERTEX
  8
WS10
 10
    56.99
 20
     3.26
 30
  0
  0
VERTEX
  8
WS10
 10
    57.09
 20
     3.34
 30
  0
  0
VERTEX
  8
WS10
 10
    57.09
 20
     3.44
 30
  0
  0
VERTEX
  8
WS10
 10
    57.11
 20
     3.52
 30
  0
  0
VERTEX
  8
WS10
 10
    57.11
 20
     3.53
 30
  0
  0
VERTEX
  8
WS10
 10
    57.21
 20
     3.53
 30
  0
  0
VERTEX
  8
WS10
 10
    57.30
 20
     3.57
 30
  0
  0
VERTEX
  8
WS10
 10
    58.70
 20
     4.10
 30
  0
  0
VERTEX
  8
WS10
 10
    61.00
 20
     6.15
 30
  0
  0
SEQEND
  0
POLYLINE
  8
WS50
 66
     1
 70
   128
  0
VERTEX
  8
WS50
 10
    51.00
 20
     1.21
 30
  0
  0
VERTEX
  8
WS50
 10
    51.20
 20
     1.24
 30
  0
  0
VERTEX
  8
WS50
 10
    51.60
 20
     1.32
 30
  0
  0
VERTEX
  8
WS50
 10
    52.00
 20
     1.42
 30
  0
  0
VERTEX
  8
WS50
 10
    52.40
 20
     1.52
 30
  0
  0
VERTEX
  8
WS50
 10
    53.00
 20
     1.67
 30
  0
  0
VERTEX
  8
WS50
 10
    53.70
 20
     1.84
 30
  0
  0
VERTEX
  8
WS50
 10
    56.90
 20
     3.30
 30
  0
  0
VERTEX
  8
WS50
 10
    56.99
 20
     3.43
 30
  0
  0
VERTEX
  8
WS50
 10
    57.09
 20
     3.48
 30
  0
  0
VERTEX
  8
WS50
 10
    57.09
 20
     3.49
 30
  0
  0
VERTEX
  8
WS50
 10
    57.11
 20
     3.58
 30
  0
  0
VERTEX
  8
WS50
 10
    57.11
 20
     3.60
 30
  0
  0
VERTEX
  8
WS50
 10
    57.21
 20
     3.60
 30
  0
  0
VERTEX
  8
WS50
 10
    57.30
 20
     3.77
 30
  0
  0
VERTEX
  8
WS50
 10
    58.70
 20
     4.20
 30
  0
  0
VERTEX
  8
WS50
 10
    61.00
 20
     6.26
 30
  0
  0
SEQEND
  0
POLYLINE
  8
WS500
 66
     1
 70
   128
  0
VERTEX
  8
WS500
 10
    51.00
 20
     1.37
 30
  0
  0
VERTEX
  8
WS500
 10
    51.20
 20
     1.39
 30
  0
  0
VERTEX
  8
WS500
 10
    51.60
 20
     1.43
 30
  0
  0
VERTEX
  8
WS500
 10
    52.00
 20
     1.50
 30
  0
  0
VERTEX
  8
WS500
 10
    52.40
 20
     1.59
 30
  0
  0
VERTEX
  8
WS500
 10
    53.00
 20
     1.74
 30
  0
  0
VERTEX
  8
WS500
 10
    53.70
 20
     1.91
 30
  0
  0
VERTEX
  8
WS500
 10
    56.90
 20
     3.42
 30
  0
  0
VERTEX
  8
WS500
 10
    56.99
 20
     3.54
 30
  0
  0
VERTEX
  8
WS500
 10
    57.09
 20
     3.59
 30
  0
  0
VERTEX
  8
WS500
 10
    57.09
 20
     3.59
 30
  0
  0
VERTEX
  8
WS500
 10
    57.11
 20
     3.67
 30
  0
  0
VERTEX
  8
WS500
 10
    57.11
 20
     3.69
 30
  0
  0
VERTEX
  8
WS500
 10
    57.21
 20
     3.69
 30
  0
  0
VERTEX
  8
WS500
 10
    57.30
 20
     3.89
 30
  0
  0
VERTEX
  8
WS500
 10
    58.70
 20
     4.31
 30
  0
  0
VERTEX
  8
WS500
 10
    61.00
 20
     6.36
 30
  0
  0
SEQEND
  0
INSERT
  8
0
  2
XSEC
 10
    53.70
 20
     0.48
 30
  0
  0
TEXT
  8
0
 10
    53.64
 20
     0.42
 40
  0.1
  1
P
  0
INSERT
  8
0
  2
XSEC
 10
    56.90
 20
     0.48
 30
  0
  0
TEXT
  8
0
 10
    56.84
 20
     0.42
 40
  0.1
  1
Q
  0
INSERT
  8
0
  2
XSEC
 10
    57.30
 20
     0.48
 30
  0
  0
TEXT
  8
0
 10
    57.24
 20
     0.42
 40
  0.1
  1
R
  0
INSERT
  8
0
  2
XSEC
 10
    58.70
 20
     0.48
 30
  0
  0
TEXT
  8
0
 10
    58.64
 20
     0.42
 40
  0.1
  1
S
  0
INSERT
  8
STRUCTURE
  2
BAR
 10
    57.10
 20
     3.28
 30
  0
  0
POLYLINE
  8
STRUCTURE
 66
     1
 70
   128
  0
VERTEX
  8
STRUCTURE
 10
    57.10
 20
     3.28
 30
  0
  0
VERTEX
  8
STRUCTURE
 10
    57.10
 20
     3.35
 30
  0
  0
SEQEND
  0
INSERT
  8
STRUCTURE
  2
BAR
 10
    57.10
 20
     3.35
 30
  0
  0
INSERT
  8
0
  2
V_BASE
 10
    57.10
 20
     7.00
 30
  0
  0
TEXT
  8
0
 10
    57.05
 20
     7.45
 40
  0.1
 50
90.0
  1
 PERTH ROAD
 72
   1
 11
    57.05
 21
     7.45
  0
INSERT
  8
ROCK
  2
ROCK
 10
    53.70
 20
     1.24
 30
  0
 50
    23.78
  0
INSERT
  8
ROCK
  2
ROCK
 10
    57.30
 20
     3.12
 30
  0
 50
    13.19
  0
INSERT
  8
ROCK
  2
ROCK
 10
    58.70
 20
     3.45
 30
  0
 50
    42.57
  0
TEXT
  8
0
 10
    67.95
 20
    -0.20
 40
  0.1
  1
 24500
 72
   1
 11
    67.95
 21
    -0.20
  0
TEXT
  8
0
 10
    68.95
 20
    -0.20
 40
  0.1
  1
 25000
 72
   1
 11
    68.95
 21
    -0.20
  0
TEXT
  8
0
 10
    69.95
 20
    -0.20
 40
  0.1
  1
 25500
 72
   1
 11
    69.95
 21
    -0.20
  0
TEXT
  8
0
 10
    70.95
 20
    -0.20
 40
  0.1
  1
 26000
 72
   1
 11
    70.95
 21
    -0.20
  0
TEXT
  8
0
 10
    71.95
 20
    -0.20
 40
  0.1
  1
 26500
 72
   1
 11
    71.95
 21
    -0.20
  0
TEXT
  8
0
 10
    72.95
 20
    -0.20
 40
  0.1
  1
 27000
 72
   1
 11
    72.95
 21
    -0.20
  0
TEXT
  8
0
 10
    73.95
 20
    -0.20
 40
  0.1
  1
 27500
 72
   1
 11
    73.95
 21
    -0.20
  0
TEXT
  8
0
 10
    74.95
 20
    -0.20
 40
  0.1
  1
 28000
 72
   1
 11
    74.95
 21
    -0.20
  0
TEXT
  8
0
 10
    75.95
 20
    -0.20
 40
  0.1
  1
 28500
 72
   1
 11
    75.95
 21
    -0.20
  0
TEXT
  8
0
 10
    76.95
 20
    -0.20
 40
  0.1
  1
 29000
 72
   1
 11
    76.95
 21
    -0.20
  0
TEXT
  8
0
 10
    77.95
 20
    -0.20
 40
  0.1
  1
 29500
 72
   1
 11
    77.95
 21
    -0.20
  0
TEXT
  8
0
 10
    78.95
 20
    -0.20
 40
  0.1
  1
 30000
 72
   1
 11
    78.95
 21
    -0.20
  0
TEXT
  8
0
 10
    79.95
 20
    -0.20
 40
  0.1
  1
 30500
 72
   1
 11
    79.95
 21
    -0.20
  0
TEXT
  8
0
 10
    80.95
 20
    -0.20
 40
  0.1
  1
 31000
 72
   1
 11
    80.95
 21
    -0.20
  0
TEXT
  8
0
 10
    67.25
 20
    -0.05
 40
  0.1
  1
    910
  0
TEXT
  8
0
 10
    80.90
 20
    -0.05
 40
  0.1
  1
  910
  0
TEXT
  8
0
 10
    67.25
 20
     0.95
 40
  0.1
  1
    920
  0
TEXT
  8
0
 10
    80.90
 20
     0.95
 40
  0.1
  1
  920
  0
TEXT
  8
0
 10
    67.25
 20
     1.95
 40
  0.1
  1
    930
  0
TEXT
  8
0
 10
    80.90
 20
     1.95
 40
  0.1
  1
  930
  0
TEXT
  8
0
 10
    67.25
 20
     2.95
 40
  0.1
  1
    940
  0
TEXT
  8
0
 10
    80.90
 20
     2.95
 40
  0.1
  1
  940
  0
TEXT
  8
0
 10
    67.25
 20
     3.95
 40
  0.1
  1
    950
  0
TEXT
  8
0
 10
    80.90
 20
     3.95
 40
  0.1
  1
  950
  0
TEXT
  8
0
 10
    67.25
 20
     4.95
 40
  0.1
  1
    960
  0
TEXT
  8
0
 10
    80.90
 20
     4.95
 40
  0.1
  1
  960
  0
TEXT
  8
0
 10
    67.25
 20
     5.95
 40
  0.1
  1
    970
  0
TEXT
  8
0
 10
    80.90
 20
     5.95
 40
  0.1
  1
  970
  0
TEXT
  8
0
 10
    67.25
 20
     6.95
 40
  0.1
  1
    980
  0
TEXT
  8
0
 10
    80.90
 20
     6.95
 40
  0.1
  1
  980
  0
TEXT
  8
0
 10
    67.25
 20
     7.95
 40
  0.1
  1
    990
  0
TEXT
  8
0
 10
    80.90
 20
     7.95
 40
  0.1
  1
  990
  0
TEXT
  8
0
 10
    67.25
 20
     8.95
 40
  0.1
  1
   1000
  0
TEXT
  8
0
 10
    80.90
 20
     8.95
 40
  0.1
  1
 1000
  0
INSERT
  8
0
  2
BORDER
 10
    68.00
 20
     0.00
 30
  0
  0
TEXT
  8
0
 10
    82.00
 20
    -0.65
 40
  0.2
 7
ROMANT
  1
5P
 72
   1
 11
    82.00
 21
    -0.65
  0
TEXT
  8
0
 10
    68.00
 20
    -0.60
 40
 0.1
 7
ROMANT
  1
STREAM DISTANCE IN FEET  
 72
   1
 11
    74.50
 21
    -0.60
  0
TEXT
  8
0
 10
    82.10
 20
    -0.20
 40
 0.1
 7
ROMANT
 50
90.0
  1
 WINSTON-SALEM/FORSYTH CO., NC
 72
   1
 11
    82.10
 21
     1.50
  0
TEXT
  8
0
 10
    82.40
 20
    -0.20
 40
 0.1
 50
90.0
  1
 FORSYTH
 72
   1
 11
    82.40
 21
     1.50
  0
TEXT
  8
0
 10
    82.30
 20
     6.30
 40
 0.15
 50
90.0
  1
 GRASSY CREEK
 72
   1
 11
    82.30
 21
     6.30
  0
POLYLINE
  8
STREAM
 66
     1
 70
   128
  0
VERTEX
  8
STREAM
 10
    68.00
 20
     0.56
 30
  0
  0
VERTEX
  8
STREAM
 10
    73.56
 20
     5.67
 30
  0
  0
SEQEND
  0
POLYLINE
  8
WS100
 66
     1
 70
   128
  0
VERTEX
  8
WS100
 10
    68.00
 20
     1.29
 30
  0
  0
VERTEX
  8
WS100
 10
    73.56
 20
     6.27
 30
  0
  0
SEQEND
  0
POLYLINE
  8
WS10
 66
     1
 70
   128
  0
VERTEX
  8
WS10
 10
    68.00
 20
     1.15
 30
  0
  0
VERTEX
  8
WS10
 10
    73.56
 20
     6.11
 30
  0
  0
SEQEND
  0
POLYLINE
  8
WS50
 66
     1
 70
   128
  0
VERTEX
  8
WS50
 10
    68.00
 20
     1.26
 30
  0
  0
VERTEX
  8
WS50
 10
    73.56
 20
     6.25
 30
  0
  0
SEQEND
  0
POLYLINE
  8
WS500
 66
     1
 70
   128
  0
VERTEX
  8
WS500
 10
    68.00
 20
     1.36
 30
  0
  0
VERTEX
  8
WS500
 10
    73.56
 20
     6.31
 30
  0
  0
SEQEND
  0
INSERT
  8
0
  2
XSEC
 10
    73.56
 20
     0.48
 30
  0
  0
TEXT
  8
0
 10
    73.50
 20
     0.42
 40
  0.1
  1
T
  0
ENDSEC
  0
EOF
